  0
SECTION
  2
HEADER
  9
$ACADVER
  1
AC1009
  9
$INSBASE
 10
452.7598612760251
 20
327.6235479254835
 30
0.0
  9
$EXTMIN
 10
0.0
 20
-84.96893120918062
 30
0.0
  9
$EXTMAX
 10
185.6725228415124
 20
244.8078568637636
 30
0.0
  9
$LIMMIN
 10
420.0
 20
204.6235479254833
  9
$LIMMAX
 10
872.7598612760251
 20
297.0
  9
$ORTHOMODE
 70
     1
  9
$REGENMODE
 70
     0
  9
$FILLMODE
 70
     1
  9
$QTEXTMODE
 70
     0
  9
$MIRRTEXT
 70
     0
  9
$DRAGMODE
 70
     2
  9
$LTSCALE
 40
1.0
  9
$OSMODE
 70
    32
  9
$ATTMODE
 70
     1
  9
$TEXTSIZE
 40
2.484999999999999
  9
$TRACEWID
 40
0.1
  9
$TEXTSTYLE
  7
STANDARD
  9
$CLAYER
  8
0
  9
$CELTYPE
  6
BYLAYER
  9
$CECOLOR
 62
   256
  9
$DIMSCALE
 40
1.0
  9
$DIMASZ
 40
2.5
  9
$DIMEXO
 40
1.0
  9
$DIMDLI
 40
8.0
  9
$DIMRND
 40
0.0
  9
$DIMDLE
 40
0.0
  9
$DIMEXE
 40
2.0
  9
$DIMTP
 40
0.1
  9
$DIMTM
 40
0.1
  9
$DIMTXT
 40
3.5
  9
$DIMCEN
 40
2.0
  9
$DIMTSZ
 40
0.0
  9
$DIMTOL
 70
     0
  9
$DIMLIM
 70
     0
  9
$DIMTIH
 70
     0
  9
$DIMTOH
 70
     0
  9
$DIMSE1
 70
     0
  9
$DIMSE2
 70
     0
  9
$DIMTAD
 70
     1
  9
$DIMZIN
 70
     8
  9
$DIMBLK
  1

  9
$DIMASO
 70
     1
  9
$DIMSHO
 70
     1
  9
$DIMPOST
  1

  9
$DIMAPOST
  1

  9
$DIMALT
 70
     0
  9
$DIMALTD
 70
     2
  9
$DIMALTF
 40
25.39999999999999
  9
$DIMLFAC
 40
1.0
  9
$DIMTOFL
 70
     1
  9
$DIMTVP
 40
0.0
  9
$DIMTIX
 70
     0
  9
$DIMSOXD
 70
     0
  9
$DIMSAH
 70
     0
  9
$DIMBLK1
  1

  9
$DIMBLK2
  1

  9
$DIMSTYLE
  2
GEN-ISO
  9
$DIMCLRD
 70
   256
  9
$DIMCLRE
 70
   256
  9
$DIMCLRT
 70
     2
  9
$DIMTFAC
 40
0.71
  9
$DIMGAP
 40
1.5
  9
$LUNITS
 70
     2
  9
$LUPREC
 70
     3
  9
$SKETCHINC
 40
0.1
  9
$FILLETRAD
 40
2.5
  9
$AUNITS
 70
     0
  9
$AUPREC
 70
     1
  9
$MENU
  1

  9
$ELEVATION
 40
0.0
  9
$PELEVATION
 40
0.0
  9
$THICKNESS
 40
0.0
  9
$LIMCHECK
 70
     0
  9
$BLIPMODE
 70
     0
  9
$CHAMFERA
 40
2.5
  9
$CHAMFERB
 40
2.5
  9
$SKPOLY
 70
     1
  9
$TDCREATE
 40
2449603.425015162
  9
$TDUPDATE
 40
2449603.441967129
  9
$TDINDWG
 40
0.0167306713
  9
$TDUSRTIMER
 40
0.0167306713
  9
$USRTIMER
 70
     1
  9
$ANGBASE
 50
0.0
  9
$ANGDIR
 70
     0
  9
$PDMODE
 70
     3
  9
$PDSIZE
 40
0.0
  9
$PLINEWID
 40
0.0
  9
$COORDS
 70
     2
  9
$SPLFRAME
 70
     0
  9
$SPLINETYPE
 70
     6
  9
$SPLINESEGS
 70
     8
  9
$ATTDIA
 70
     1
  9
$ATTREQ
 70
     1
  9
$HANDLING
 70
     0
  9
$HANDSEED
  5
B8A70
  9
$SURFTAB1
 70
     6
  9
$SURFTAB2
 70
     6
  9
$SURFTYPE
 70
     6
  9
$SURFU
 70
     6
  9
$SURFV
 70
     6
  9
$UCSNAME
  2

  9
$UCSORG
 10
0.0
 20
0.0
 30
0.0
  9
$UCSXDIR
 10
1.0
 20
0.0
 30
0.0
  9
$UCSYDIR
 10
0.0
 20
1.0
 30
0.0
  9
$PUCSNAME
  2

  9
$PUCSORG
 10
0.0
 20
0.0
 30
0.0
  9
$PUCSXDIR
 10
1.0
 20
0.0
 30
0.0
  9
$PUCSYDIR
 10
0.0
 20
1.0
 30
0.0
  9
$USERI1
 70
     0
  9
$USERI2
 70
     3
  9
$USERI3
 70
    15
  9
$USERI4
 70
     0
  9
$USERI5
 70
     0
  9
$USERR1
 40
1.0
  9
$USERR2
 40
1.0
  9
$USERR3
 40
0.0
  9
$USERR4
 40
1.0
  9
$USERR5
 40
0.0
  9
$WORLDVIEW
 70
     5
  9
$SHADEDGE
 70
     3
  9
$SHADEDIF
 70
    70
  9
$TILEMODE
 70
     1
  9
$MAXACTVP
 70
     4
  9
$PINSBASE
 10
452.7598612760251
 20
327.6235479254835
 30
0.0
  9
$PLIMCHECK
 70
     0
  9
$PEXTMIN
 10
1.000000000000000E+20
 20
1.000000000000000E+20
 30
1.000000000000000E+20
  9
$PEXTMAX
 10
-1.000000000000000E+20
 20
-1.000000000000000E+20
 30
-1.000000000000000E+20
  9
$PLIMMIN
 10
0.0
 20
0.0
  9
$PLIMMAX
 10
420.0
 20
297.0
  9
$UNITMODE
 70
     0
  9
$VISRETAIN
 70
     0
  9
$PLINEGEN
 70
     0
  9
$PSLTSCALE
 70
     0
  9
$TREEDEPTH
 70
  3020
  9
$DWGCODEPAGE
  3
undefined
  0
ENDSEC
  0
SECTION
  2
TABLES
  0
TABLE
  2
VPORT
 70
     2
  0
VPORT
  2
*ACTIVE
 70
     0
 10
0.0
 20
0.0
 11
1.0
 21
1.0
 12
147.1556587954437
 22
182.9670310518134
 13
0.0
 23
0.0
 14
1.0
 24
1.0
 15
10.0
 25
10.0
 16
0.0
 26
0.0
 36
1.0
 17
0.0
 27
0.0
 37
0.0
 40
137.2201500206711
 41
1.275675675675675
 42
50.0
 43
0.0
 44
0.0
 50
0.0
 51
0.0
 71
     0
 72
   100
 73
     1
 74
     2
 75
     0
 76
     0
 77
     0
 78
     0
  0
ENDTAB
  0
TABLE
  2
LTYPE
 70
    15
  0
LTYPE
  2
CONTINUOUS
 70
    64
  3
Solid line
 72
    65
 73
     0
 40
0.0
  0
LTYPE
  2
GEN4A
 70
    64
  3
_____ . . _____ . . _____ . . ____ .. ____
 72
    65
 73
     6
 40
17.5
 49
10.0
 49
-2.5
 49
0.0
 49
-2.5
 49
0.0
 49
-2.5
  0
LTYPE
  2
GEN7
 70
    64
  3
____ . ____ . ____ . ____ . ____ . ____ . ____
 72
    65
 73
     4
 40
15.0
 49
10.0
 49
-2.5
 49
0.0
 49
-2.5
  0
LTYPE
  2
GEN7A
 70
    64
  3
__ . __ . __
 72
    65
 73
     4
 40
7.5
 49
5.0
 49
-1.25
 49
0.0
 49
-1.25
  0
LTYPE
  2
GEN3A
 70
    64
  3
 - - - - -
 72
    65
 73
     2
 40
3.1
 49
2.5
 49
-0.6
  0
LTYPE
  2
GEN3
 70
    64
  3
-- -- -- -- -- -- -- -- -- -- -- -- -- -- --
 72
    65
 73
     2
 40
6.25
 49
5.0
 49
-1.25
  0
LTYPE
  2
GEN
 70
    64
  3
----------------------
 72
    65
 73
     2
 40
10000000000.0
 49
0.0
 49
10000000000.0
  0
LTYPE
  2
ITEM-STRICH
 70
     0
  3
 - - - - -
 72
    65
 73
     2
 40
1.5
 49
1.2
 49
-0.3
  0
LTYPE
  2
ITEM-STRICHGR
 70
     0
  3
 -- -- -- -- --
 72
    65
 73
     2
 40
6.25
 49
5.0
 49
-1.25
  0
LTYPE
  2
ITEM-STRICHPUNKT
 70
     0
  3
__ . __ . __
 72
    65
 73
     4
 40
3.599999999999999
 49
2.399999999999999
 49
-0.6
 49
0.0
 49
-0.6
  0
LTYPE
  2
ITEM-STRICHPGR
 70
     0
  3
____ . ____ . ____ . ____ . ____ . ____ . ____
 72
    65
 73
     4
 40
15.0
 49
10.0
 49
-2.5
 49
0.0
 49
-2.5
  0
LTYPE
  2
AIT$STRICH
 70
    64
  3
 - - - - -
 72
    65
 73
     2
 40
1.5
 49
1.2
 49
-0.3
  0
LTYPE
  2
AIT$STRICHGR
 70
    64
  3
 -- -- -- -- --
 72
    65
 73
     2
 40
6.25
 49
5.0
 49
-1.25
  0
LTYPE
  2
AIT$STRICHPUNKT
 70
    64
  3
__ . __ . __
 72
    65
 73
     4
 40
3.599999999999999
 49
2.399999999999999
 49
-0.6
 49
0.0
 49
-0.6
  0
LTYPE
  2
AIT$STRICHPGR
 70
    64
  3
____ . ____ . ____ . ____ . ____ . ____ . ____
 72
    65
 73
     4
 40
15.0
 49
10.0
 49
-2.5
 49
0.0
 49
-2.5
  0
ENDTAB
  0
TABLE
  2
LAYER
 70
    48
  0
LAYER
  2
0
 70
    64
 62
     7
  6
CONTINUOUS
  0
LAYER
  2
ITEM_HILFE
 70
    64
 62
     3
  6
CONTINUOUS
  0
LAYER
  2
ITEM_50
 70
    64
 62
     7
  6
CONTINUOUS
  0
LAYER
  2
4AN
 70
     0
 62
     3
  6
GEN4A
  0
LAYER
  2
2AN
 70
     0
 62
     7
  6
GEN7
  0
LAYER
  2
7AN
 70
     0
 62
     4
  6
GEN7A
  0
LAYER
  2
3AN
 70
     0
 62
     6
  6
GEN3A
  0
LAYER
  2
8N
 70
     0
 62
     1
  6
CONTINUOUS
  0
LAYER
  2
7N
 70
     0
 62
     4
  6
GEN7
  0
LAYER
  2
6N
 70
     0
 62
     2
  6
CONTINUOUS
  0
LAYER
  2
5N
 70
     0
 62
     3
  6
CONTINUOUS
  0
LAYER
  2
4N
 70
     0
 62
     3
  6
CONTINUOUS
  0
LAYER
  2
3N
 70
     0
 62
     6
  6
GEN3
  0
LAYER
  2
2N
 70
     0
 62
     5
  6
CONTINUOUS
  0
LAYER
  2
1N
 70
     0
 62
     9
  6
CONTINUOUS
  0
LAYER
  2
0N
 70
     0
 62
     7
  6
CONTINUOUS
  0
LAYER
  2
GENHATCH
 70
     0
 62
     8
  6
CONTINUOUS
  0
LAYER
  2
4A
 70
     0
 62
     3
  6
GEN4A
  0
LAYER
  2
2A
 70
     0
 62
     7
  6
GEN7
  0
LAYER
  2
7A
 70
     0
 62
     4
  6
GEN7A
  0
LAYER
  2
3A
 70
     0
 62
     6
  6
GEN3A
  0
LAYER
  2
8
 70
     0
 62
     1
  6
CONTINUOUS
  0
LAYER
  2
7
 70
     0
 62
     4
  6
GEN7
  0
LAYER
  2
6
 70
     0
 62
     2
  6
CONTINUOUS
  0
LAYER
  2
5
 70
     0
 62
     3
  6
CONTINUOUS
  0
LAYER
  2
4
 70
     0
 62
     3
  6
CONTINUOUS
  0
LAYER
  2
3
 70
     0
 62
     6
  6
GEN3
  0
LAYER
  2
2
 70
     0
 62
     5
  6
CONTINUOUS
  0
LAYER
  2
1
 70
     0
 62
     9
  6
CONTINUOUS
  0
LAYER
  2
RAHM2
 70
     0
 62
     3
  6
GEN
  0
LAYER
  2
RAHM3
 70
     0
 62
     7
  6
GEN
  0
LAYER
  2
RAHM5
 70
     0
 62
     7
  6
GEN
  0
LAYER
  2
KLIN
 70
     0
 62
     9
  6
GEN
  0
LAYER
  2
INFO
 70
     0
 62
     4
  6
GEN
  0
LAYER
  2
DEFPOINTS
 70
     0
 62
    -7
  6
GEN
  0
LAYER
  2
AIT$50
 70
     0
 62
     7
  6
CONTINUOUS
  0
LAYER
  2
AIT$35
 70
     0
 62
     2
  6
CONTINUOUS
  0
LAYER
  2
AIT$25
 70
     0
 62
     3
  6
CONTINUOUS
  0
LAYER
  2
AIT$HILFE
 70
    64
 62
     3
  6
CONTINUOUS
  0
LAYER
  2
AIT$INFO
 70
    64
 62
     4
  6
CONTINUOUS
  0
LAYER
  2
AIT$STP
 70
     0
 62
     4
  6
AIT$STRICHPUNKT
  0
LAYER
  2
AIT$STPG
 70
     0
 62
     4
  6
AIT$STRICHPGR
  0
LAYER
  2
AIT$GSTR
 70
     0
 62
     6
  6
AIT$STRICH
  0
LAYER
  2
AIT$GSTRG
 70
     0
 62
     6
  6
AIT$STRICHGR
  0
LAYER
  2
AIT$3D
 70
     0
 62
     7
  6
CONTINUOUS
  0
LAYER
  2
AIT$3D_HLF
 70
     0
 62
     3
  6
CONTINUOUS
  0
LAYER
  2
AIT$3D_DET
 70
     1
 62
     2
  6
CONTINUOUS
  0
LAYER
  2
AIT$3D_BEM
 70
     0
 62
     2
  6
CONTINUOUS
  0
ENDTAB
  0
TABLE
  2
STYLE
 70
     9
  0
STYLE
  2
STANDARD
 70
     0
 40
0.0
 41
1.0
 50
0.0
 71
     0
 42
2.484999999999999
  3
GENISO
  4

  0
STYLE
  2
GENPRESET
 70
    64
 40
0.0
 41
1.0
 50
0.0
 71
     0
 42
3.5
  3
GENPRESE
  4

  0
STYLE
  2
1
 70
     0
 40
0.0
 41
1.0
 50
0.0
 71
     0
 42
3.5
  3
TXT8
  4

  0
STYLE
  2
2
 70
     0
 40
0.0
 41
1.0
 50
0.0
 71
     0
 42
3.5
  3
MONOTXT8
  4

  0
STYLE
  2
3
 70
     0
 40
0.0
 41
0.8
 50
0.0
 71
     0
 42
3.5
  3
SIMPLEX8
  4

  0
STYLE
  2
4
 70
     0
 40
0.0
 41
1.0
 50
0.0
 71
     0
 42
3.5
  3
ITALIC8
  4

  0
STYLE
  2
AIT$BEM-L
 70
     0
 40
0.0
 41
1.0
 50
29.99999999999999
 71
     0
 42
3.5
  3
iso8
  4

  0
STYLE
  2
AIT$BEM-R
 70
     0
 40
0.0
 41
1.0
 50
330.0
 71
     0
 42
3.5
  3
iso8
  4

  0
STYLE
  2
AIT$TSTIL
 70
    64
 40
0.0
 41
0.8
 50
0.0
 71
     0
 42
3.5
  3
iso8
  4

  0
ENDTAB
  0
TABLE
  2
VIEW
 70
     0
  0
ENDTAB
  0
TABLE
  2
UCS
 70
     0
  0
ENDTAB
  0
TABLE
  2
APPID
 70
     2
  0
APPID
  2
ACAD
 70
    64
  0
ENDTAB
  0
TABLE
  2
DIMSTYLE
 70
    12
  0
DIMSTYLE
  2
GEN-ISO
 70
     0
  3

  4

  5

  6

  7

 40
1.0
 41
2.5
 42
1.0
 43
8.0
 44
2.0
 45
0.0
 46
0.0
 47
0.1
 48
0.1
140
3.5
141
2.0
142
0.0
143
25.39999999999999
144
1.0
145
0.0
146
0.71
147
1.5
 71
     0
 72
     0
 73
     0
 74
     0
 75
     0
 76
     0
 77
     1
 78
     8
170
     0
171
     2
172
     1
173
     0
174
     0
175
     0
176
   256
177
   256
178
     2
  0
DIMSTYLE
  2
GEN-ISO-AXE-H
 70
     0
  3

  4

  5

  6

  7

 40
1.0
 41
2.5
 42
1.0
 43
8.0
 44
2.0
 45
0.0
 46
0.0
 47
0.1
 48
0.1
140
3.5
141
2.0
142
0.0
143
25.39999999999999
144
2.0
145
0.0
146
0.71
147
1.5
 71
     0
 72
     0
 73
     0
 74
     0
 75
     1
 76
     1
 77
     1
 78
     8
170
     0
171
     2
172
     1
173
     1
174
     0
175
     0
176
   256
177
   256
178
     2
  0
DIMSTYLE
  2
GEN-ISO-AXE-F
 70
     0
  3

  4

  5

  6

  7

 40
1.0
 41
2.5
 42
1.0
 43
8.0
 44
2.0
 45
0.0
 46
0.0
 47
0.1
 48
0.1
140
3.5
141
2.0
142
0.0
143
25.39999999999999
144
1.0
145
0.0
146
0.71
147
1.5
 71
     0
 72
     0
 73
     0
 74
     0
 75
     1
 76
     1
 77
     1
 78
     8
170
     0
171
     2
172
     1
173
     0
174
     0
175
     0
176
   256
177
   256
178
     2
  0
DIMSTYLE
  2
GEN-ISO-POS
 70
     0
  3

  4

  5

  6

  7

 40
1.0
 41
2.5
 42
1.0
 43
8.0
 44
2.0
 45
0.0
 46
0.0
 47
0.1
 48
0.1
140
5.0
141
2.0
142
0.0
143
25.39999999999999
144
1.0
145
0.0
146
0.71
147
1.5
 71
     0
 72
     0
 73
     0
 74
     0
 75
     0
 76
     0
 77
     1
 78
     8
170
     0
171
     2
172
     1
173
     0
174
     0
175
     0
176
   256
177
   256
178
     2
  0
DIMSTYLE
  2
GEN-ISO-CIR
 70
     0
  3

  4

  5

  6

  7

 40
1.0
 41
2.5
 42
1.0
 43
8.0
 44
2.0
 45
0.0
 46
0.0
 47
0.1
 48
0.1
140
3.5
141
2.0
142
0.0
143
25.39999999999999
144
1.0
145
0.0
146
0.71
147
1.5
 71
     0
 72
     0
 73
     0
 74
     0
 75
     0
 76
     0
 77
     1
 78
     8
170
     0
171
     2
172
     1
173
     0
174
     1
175
     0
176
   256
177
   256
178
     2
  0
DIMSTYLE
  2
GEN-ANSI
 70
     0
  3

  4

  5

  6

  7

 40
1.0
 41
0.1
 42
0.05
 43
0.3
 44
0.1
 45
0.0
 46
0.0
 47
0.1
 48
0.1
140
0.15
141
0.1
142
0.0
143
25.39999999999999
144
1.0
145
0.0
146
0.8
147
0.1
 71
     0
 72
     0
 73
     0
 74
     0
 75
     0
 76
     0
 77
     1
 78
     8
170
     0
171
     2
172
     1
173
     0
174
     0
175
     0
176
   256
177
   256
178
     2
  0
DIMSTYLE
  2
GEN-ANSI-POS
 70
     0
  3

  4

  5

  6

  7

 40
1.0
 41
0.1
 42
0.05
 43
0.4
 44
0.1
 45
0.0
 46
0.0
 47
0.1
 48
0.1
140
0.2
141
0.1
142
0.0
143
25.39999999999999
144
1.0
145
0.0
146
0.8
147
0.1
 71
     0
 72
     0
 73
     0
 74
     0
 75
     0
 76
     0
 77
     1
 78
     8
170
     0
171
     2
172
     1
173
     0
174
     0
175
     0
176
   256
177
   256
178
     2
  0
DIMSTYLE
  2
GEN-ANSI-CIR
 70
     0
  3

  4

  5

  6

  7

 40
1.0
 41
0.1
 42
0.05
 43
0.4
 44
0.1
 45
0.0
 46
0.0
 47
0.1
 48
0.1
140
0.15
141
0.1
142
0.0
143
25.39999999999999
144
1.0
145
0.0
146
0.8
147
0.1
 71
     0
 72
     0
 73
     0
 74
     0
 75
     0
 76
     0
 77
     0
 78
     8
170
     0
171
     2
172
     1
173
     0
174
     1
175
     0
176
   256
177
   256
178
     2
  0
DIMSTYLE
  2
GEN-ANSI-AXE-F
 70
     0
  3

  4

  5

  6

  7

 40
1.0
 41
0.1
 42
0.05
 43
0.3
 44
0.1
 45
0.0
 46
0.0
 47
0.1
 48
0.1
140
0.15
141
0.1
142
0.0
143
25.39999999999999
144
1.0
145
0.0
146
1.0
147
0.0
 71
     0
 72
     0
 73
     0
 74
     0
 75
     1
 76
     1
 77
     1
 78
     8
170
     0
171
     2
172
     1
173
     0
174
     0
175
     0
176
   256
177
   256
178
     2
  0
DIMSTYLE
  2
GEN-ANSI-AXE-H
 70
     0
  3

  4

  5

  6
GEN-AXE-H
  7

 40
1.0
 41
0.1
 42
0.05
 43
0.4
 44
0.1
 45
0.0
 46
0.0
 47
0.1
 48
0.1
140
0.15
141
0.1
142
0.0
143
25.39999999999999
144
2.0
145
0.0
146
1.0
147
0.0
 71
     0
 72
     0
 73
     0
 74
     0
 75
     1
 76
     1
 77
     0
 78
     8
170
     0
171
     2
172
     1
173
     1
174
     0
175
     0
176
   256
177
   256
178
     2
  0
DIMSTYLE
  2
GEN-ISO-ORD
 70
     0
  3

  4

  5

  6

  7

 40
1.0
 41
2.5
 42
1.0
 43
8.0
 44
2.0
 45
0.0
 46
0.0
 47
0.1
 48
0.1
140
3.5
141
2.0
142
0.0
143
25.39999999999999
144
1.0
145
0.0
146
0.71
147
1.5
 71
     0
 72
     0
 73
     0
 74
     0
 75
     0
 76
     0
 77
     0
 78
     8
170
     0
171
     2
172
     0
173
     0
174
     0
175
     0
176
   256
177
   256
178
     2
  0
DIMSTYLE
  2
GEN-ANSI-ORD
 70
     0
  3

  4

  5

  6

  7

 40
1.0
 41
0.1
 42
0.05
 43
0.4
 44
0.1
 45
0.0
 46
0.0
 47
0.1
 48
0.1
140
0.15
141
0.1
142
0.0
143
25.39999999999999
144
1.0
145
0.0
146
1.0
147
0.1
 71
     0
 72
     0
 73
     0
 74
     0
 75
     0
 76
     0
 77
     0
 78
     8
170
     0
171
     2
172
     0
173
     0
174
     0
175
     0
176
   256
177
   256
178
     2
  0
ENDTAB
  0
ENDSEC
  0
SECTION
  2
BLOCKS
  0
BLOCK
  8
0
  2
GENPRESE
 70
    66
 10
0.0
 20
0.0
 30
0.0
  3
GENPRESE
  0
ATTDEF
  8
0
 10
0.0
 20
0.0
 30
0.0
 40
3.5
  1
A3
  3
PAPER FORMAT
  2
GEN-KO2
 70
     0
  7
GENPRESET
  0
ATTDEF
  8
0
 10
0.0
 20
-5.0
 30
0.0
 40
3.5
  1
item
  3
SCHRIFTKOPF
  2
GEN-KO3
 70
     0
  7
GENPRESET
  0
ATTDEF
  8
0
 10
0.0
 20
-10.0
 30
0.0
 40
3.5
  1
15
  3
ZEITPERIODE SICHERN
  2
GENSI
 70
     0
  7
GENPRESET
  0
ATTDEF
  8
0
 10
0.0
 20
-15.0
 30
0.0
 40
3.5
  1

  3
NAME ZUM SICHERN
  2
GENSD
 70
     0
  7
GENPRESET
  0
ATTDEF
  8
0
 10
0.0679278917532429
 20
-19.93786241836124
 30
0.0
 40
3.5
  1
0
  3
INFOPKT=0/TEXT=1/NO=2
  2
GENIF
 70
     0
  7
GENPRESET
  0
ATTDEF
  8
0
 10
0.0339639458766215
 20
-24.96893120918062
 30
0.0
 40
3.5
  1
2
  3
HORIZ=1/JUSTI=2/KREIS=3
  2
GENPOSVAR
 70
     0
  7
GENPRESET
  0
ATTDEF
  8
0
 10
0.0339639458766215
 20
-29.96893120918062
 30
0.0
 40
3.5
  1
0
  3
POSILIN.KREIS=0/PFEIL=1
  2
GENPOSBLK
 70
     0
  7
GENPRESET
  0
ATTDEF
  8
0
 10
0.0339639458766215
 20
-34.96893120918062
 30
0.0
 40
3.5
  1
1
  3
INKREMENT POSINR.
  2
GENPOSINC
 70
     0
  7
GENPRESET
  0
ATTDEF
  8
0
 10
0.0339639458766215
 20
-39.96893120918062
 30
0.0
 40
3.5
  1
GEN-POS
  3
MASKE POSITIONLISTE
  2
GENPARPOS
 70
     0
  7
GENPRESET
  0
ATTDEF
  8
0
 10
0.0339639458766215
 20
-44.96893120918062
 30
0.0
 40
3.5
  1
GEN-SUM
  3
MASKE SUMMENLISTE
  2
GENPARSUM
 70
     0
  7
GENPRESET
  0
ATTDEF
  8
0
 10
0.0339639458766215
 20
-49.96893120918062
 30
0.0
 40
3.5
  1
CANONII
  3
STANDARDDRUCKER
  2
GENPARDRU
 70
     0
  7
GENPRESET
  0
ATTDEF
  8
0
 10
0.0339639458766215
 20
-54.96893120918062
 30
0.0
 40
3.5
  1

  3
LAYERGRUPPE NORMTEILE
  2
GENSTDLG
 70
     0
  7
GENPRESET
  0
ATTDEF
  8
0
 10
0.0339639458766215
 20
-59.96893120918062
 30
0.0
 40
3.5
  1
13
  3
FARBE DIALOG-FELDER
  2
GENCOLBK
 70
     0
  7
GENPRESET
  0
ATTDEF
  8
0
 10
0.0339639458766215
 20
-64.96893120918062
 30
0.0
 40
3.5
  1
4
  3
FARBE DIALOG-šBERSCHRIFT
  2
GENCOLTI
 70
     0
  7
GENPRESET
  0
ATTDEF
  8
0
 10
0.0339639458766215
 20
-69.96893120918062
 30
0.0
 40
3.5
  1
2
  3
FARBE DIALOG-TEXT
  2
GENCOLTX
 70
     0
  7
GENPRESET
  0
ATTDEF
  8
0
 10
0.0339639458766215
 20
-74.96893120918062
 30
0.0
 40
3.5
  1
edlin
  3
TEXTEDITOR
  2
GENEDITOR
 70
     0
  7
GENPRESET
  0
ATTDEF
  8
0
 10
0.0339639458766215
 20
-79.96893120918062
 30
0.0
 40
3.5
  1
M
  3
BEM INCH/METRISCH
  2
GENINCH
 70
     0
  7
GENPRESET
  0
ATTDEF
  8
0
 10
0.0339639458766215
 20
-84.96893120918062
 30
0.0
 40
3.5
  1
ISO
  3
SYMBOLE/BEM ISO/ANSI
  2
GENDIMSTIL
 70
     0
  7
GENPRESET
  0
ENDBLK
  8
0
  0
BLOCK
  8
0
  2
ACAD
 70
     0
 10
0.0
 20
0.0
 30
0.0
  3
ACAD
  0
INSERT
  8
0
 66
     1
  2
GENPRESE
 10
0.0
 20
0.0
 30
0.0
  0
ATTRIB
  8
0
 10
0.0
 20
0.0
 30
0.0
 40
3.5
  1
A3
  2
GEN-KO2
 70
     0
  7
GENPRESET
  0
ATTRIB
  8
0
 10
0.0
 20
-5.0
 30
0.0
 40
3.5
  1
item
  2
GEN-KO3
 70
     0
  7
GENPRESET
  0
ATTRIB
  8
0
 10
0.0
 20
-10.0
 30
0.0
 40
3.5
  1
15
  2
GENSI
 70
     0
  7
GENPRESET
  0
ATTRIB
  8
0
 10
0.0
 20
-15.0
 30
0.0
 40
3.5
  1

  2
GENSD
 70
     0
  7
GENPRESET
  0
ATTRIB
  8
0
 10
0.0679278917532429
 20
-19.93786241836124
 30
0.0
 40
3.5
  1
0
  2
GENIF
 70
     0
  7
GENPRESET
  0
ATTRIB
  8
0
 10
0.0339639458766215
 20
-24.96893120918062
 30
0.0
 40
3.5
  1
2
  2
GENPOSVAR
 70
     0
  7
GENPRESET
  0
ATTRIB
  8
0
 10
0.0339639458766215
 20
-29.96893120918062
 30
0.0
 40
3.5
  1
0
  2
GENPOSBLK
 70
     0
  7
GENPRESET
  0
ATTRIB
  8
0
 10
0.0339639458766215
 20
-34.96893120918062
 30
0.0
 40
3.5
  1
1
  2
GENPOSINC
 70
     0
  7
GENPRESET
  0
ATTRIB
  8
0
 10
0.0339639458766215
 20
-39.96893120918062
 30
0.0
 40
3.5
  1
GEN-POS
  2
GENPARPOS
 70
     0
  7
GENPRESET
  0
ATTRIB
  8
0
 10
0.0339639458766215
 20
-44.96893120918062
 30
0.0
 40
3.5
  1
GEN-SUM
  2
GENPARSUM
 70
     0
  7
GENPRESET
  0
ATTRIB
  8
0
 10
0.0339639458766215
 20
-49.96893120918062
 30
0.0
 40
3.5
  1
CANONII
  2
GENPARDRU
 70
     0
  7
GENPRESET
  0
ATTRIB
  8
0
 10
0.0339639458766215
 20
-54.96893120918062
 30
0.0
 40
3.5
  1

  2
GENSTDLG
 70
     0
  7
GENPRESET
  0
ATTRIB
  8
0
 10
0.0339639458766215
 20
-59.96893120918062
 30
0.0
 40
3.5
  1
13
  2
GENCOLBK
 70
     0
  7
GENPRESET
  0
ATTRIB
  8
0
 10
0.0339639458766215
 20
-64.96893120918062
 30
0.0
 40
3.5
  1
4
  2
GENCOLTI
 70
     0
  7
GENPRESET
  0
ATTRIB
  8
0
 10
0.0339639458766215
 20
-69.96893120918062
 30
0.0
 40
3.5
  1
2
  2
GENCOLTX
 70
     0
  7
GENPRESET
  0
ATTRIB
  8
0
 10
0.0339639458766215
 20
-74.96893120918062
 30
0.0
 40
3.5
  1
c:\dos\edit
  2
GENEDITOR
 70
     0
  7
GENPRESET
  0
ATTRIB
  8
0
 10
0.0339639458766215
 20
-79.96893120918062
 30
0.0
 40
3.5
  1
metric
  2
GENINCH
 70
     0
  7
GENPRESET
  0
ATTRIB
  8
0
 10
0.0339639458766215
 20
-84.96893120918062
 30
0.0
 40
3.5
  1
ISO
  2
GENDIMSTIL
 70
     0
  7
GENPRESET
  0
SEQEND
  8
0
  0
INSERT
  8
0
 66
     1
  2
AIT$MERK
 10
0.0
 20
0.0
 30
0.0
  0
ATTRIB
  8
AIT$HILFE
 10
0.8310912943111077
 20
-26.76290463692043
 30
0.0
 40
2.0
  1
genius11
  2
AIT$HAUTPMENUE
 70
     1
 41
0.8
  7
AIT$TSTIL
  0
ATTRIB
  8
AIT$HILFE
 10
0.8310912943111077
 20
-23.76290463692043
 30
0.0
 40
2.0
  1
1.0
  2
AIT$MASSTABSFAKTOR
 70
     1
 41
0.8
  7
AIT$TSTIL
  0
ATTRIB
  8
AIT$HILFE
 10
0.8310912943111077
 20
-20.76290463692043
 30
0.0
 40
2.0
  1
0
  2
AIT$LETZTE-POSITION
 70
     1
 41
0.8
  7
AIT$TSTIL
  0
ATTRIB
  8
AIT$HILFE
 10
0.8310912943111077
 20
-17.76290463692043
 30
0.0
 40
2.0
  1
0
  2
AIT$MERKER-4
 70
     1
 41
0.8
  7
AIT$TSTIL
  0
ATTRIB
  8
AIT$HILFE
 10
0.8310912943111077
 20
-14.76290463692043
 30
0.0
 40
2.0
  1
0
  2
AIT$MERKER-5
 70
     1
 41
0.8
  7
AIT$TSTIL
  0
ATTRIB
  8
AIT$HILFE
 10
0.8310912943111077
 20
-11.76290463692043
 30
0.0
 40
2.0
  1
1
  2
AIT$MERKER-6
 70
     1
 41
0.8
  7
AIT$TSTIL
  0
ATTRIB
  8
AIT$HILFE
 10
0.8310912943111077
 20
-8.762904636920433
 30
0.0
 40
2.0
  1
-
  2
AIT$MERKER-7
 70
     1
 41
0.8
  7
AIT$TSTIL
  0
ATTRIB
  8
AIT$HILFE
 10
0.8310912943111077
 20
-5.762904636920433
 30
0.0
 40
2.0
  1
-
  2
AIT$MERKER-8
 70
     1
 41
0.8
  7
AIT$TSTIL
  0
ATTRIB
  8
AIT$HILFE
 10
0.8310912943111077
 20
-2.762904636920433
 30
0.0
 40
2.0
  1
-
  2
AIT$MERKER-9
 70
     1
 41
0.8
  7
AIT$TSTIL
  0
SEQEND
  8
0
  0
ENDBLK
  8
0
  0
BLOCK
  8
0
  2
AIT$MERK
 70
    66
 10
0.0
 20
0.0
 30
0.0
  3
AIT$MERK
  0
ATTDEF
  8
AIT$HILFE
 10
0.8310912943111077
 20
-26.76290463692043
 30
0.0
 40
2.0
  1

  3
HAUPTMENš
  2
AIT$HAUTPMENUE
 70
     1
 41
0.8
  7
AIT$TSTIL
  0
ATTDEF
  8
AIT$HILFE
 10
0.8310912943111077
 20
-23.76290463692043
 30
0.0
 40
2.0
  1

  3
MAáSTABFAKTOR
  2
AIT$MASSTABSFAKTOR
 70
     1
 41
0.8
  7
AIT$TSTIL
  0
ATTDEF
  8
AIT$HILFE
 10
0.8310912943111077
 20
-20.76290463692043
 30
0.0
 40
2.0
  1

  3
LETZTE POSITION
  2
AIT$LETZTE-POSITION
 70
     1
 41
0.8
  7
AIT$TSTIL
  0
ATTDEF
  8
AIT$HILFE
 10
0.8310912943111077
 20
-17.76290463692043
 30
0.0
 40
2.0
  1

  3
BEM. NACHKOMMA
  2
AIT$MERKER-4
 70
     1
 41
0.8
  7
AIT$TSTIL
  0
ATTDEF
  8
AIT$HILFE
 10
0.8310912943111077
 20
-14.76290463692043
 30
0.0
 40
2.0
  1

  3
POS. NEU SORT. 0/1
  2
AIT$MERKER-5
 70
     1
 41
0.8
  7
AIT$TSTIL
  0
ATTDEF
  8
AIT$HILFE
 10
0.8310912943111077
 20
-11.76290463692043
 30
0.0
 40
2.0
  1

  3
ML3-STšCKLISTE 0/1
  2
AIT$MERKER-6
 70
     1
 41
0.8
  7
AIT$TSTIL
  0
ATTDEF
  8
AIT$HILFE
 10
0.8310912943111077
 20
-8.762904636920433
 30
0.0
 40
2.0
  1

  3
MERKER-7
  2
AIT$MERKER-7
 70
     1
 41
0.8
  7
AIT$TSTIL
  0
ATTDEF
  8
AIT$HILFE
 10
0.8310912943111077
 20
-5.762904636920433
 30
0.0
 40
2.0
  1

  3
MERKER-8
  2
AIT$MERKER-8
 70
     1
 41
0.8
  7
AIT$TSTIL
  0
ATTDEF
  8
AIT$HILFE
 10
0.8310912943111077
 20
-2.762904636920433
 30
0.0
 40
2.0
  1

  3
MERKER-9
  2
AIT$MERKER-9
 70
     1
 41
0.8
  7
AIT$TSTIL
  0
ENDBLK
  8
0
  0
BLOCK
  8
0
  2
AIT$INFO
 70
     2
 10
0.0
 20
0.0
 30
0.0
  3
AIT$INFO
  0
ATTDEF
  8
AIT$INFO
 10
2.212871082438304
 20
-48.80310405500295
 30
0.0
 40
3.5
  1

  3
BEZEICHNUNG1
  2
AIT$_BEZ1
 70
     1
  7
AIT$TSTIL
  0
ATTDEF
  8
AIT$INFO
 10
2.212871082438304
 20
-42.96977072166961
 30
0.0
 40
3.5
  1

  3
BEZEICHNUNG2
  2
AIT$_BEZ2
 70
     1
  7
AIT$TSTIL
  0
ATTDEF
  8
AIT$INFO
 10
2.212871082438304
 20
-37.13643738833628
 30
0.0
 40
3.5
  1

  3
LIEFERANT1
  2
AIT$_LIE1
 70
     1
  7
AIT$TSTIL
  0
ATTDEF
  8
AIT$INFO
 10
2.212871082438304
 20
-31.30310405500294
 30
0.0
 40
3.5
  1

  3
LIEFERANT2
  2
AIT$_LIE2
 70
     1
  7
AIT$TSTIL
  0
ATTDEF
  8
AIT$INFO
 10
2.212871082438304
 20
-25.46977072166961
 30
0.0
 40
3.5
  1

  3
MATERIAL1
  2
AIT$_MAT1
 70
     1
  7
AIT$TSTIL
  0
ATTDEF
  8
AIT$INFO
 10
2.212871082438304
 20
-19.63643738833627
 30
0.0
 40
3.5
  1

  3
MATERIAL2
  2
AIT$_MAT2
 70
     1
  7
AIT$TSTIL
  0
ATTDEF
  8
AIT$INFO
 10
2.212871082438304
 20
-13.80310405500294
 30
0.0
 40
3.5
  1

  3
LŽNGE
  2
AIT$_LAE
 70
     1
  7
AIT$TSTIL
  0
ATTDEF
  8
AIT$INFO
 10
2.212871082438304
 20
-7.969770721669613
 30
0.0
 40
3.5
  1

  3
BREITE
  2
AIT$_BRE
 70
     1
  7
AIT$TSTIL
  0
ATTDEF
  8
AIT$INFO
 10
2.212871082438304
 20
-2.13643738833628
 30
0.0
 40
3.5
  1

  3
SYSTEM-NUMMER
  2
AIT$_NUM
 70
     1
  7
AIT$TSTIL
  0
LINE
  8
AIT$INFO
 10
-1.275056399474328
 20
0.7361541554684589
 30
0.0
 11
1.275056399474328
 21
-0.7361541554684589
 31
0.0
  0
LINE
  8
AIT$INFO
 10
-1.275056399474328
 20
-0.7361541554684584
 30
0.0
 11
1.275056399474328
 21
0.7361541554684584
 31
0.0
  0
LINE
  8
AIT$INFO
 10
0.0
 20
1.472308310936917
 30
0.0
 11
0.0
 21
-1.472308310936917
 31
0.0
  0
ENDBLK
  8
0
  0
BLOCK
  8
0
  2
X0042767
 70
     0
 10
0.0
 20
0.0
 30
0.0
  3
X0042767
  0
CIRCLE
  8
0
 10
-907.4157264543314
 20
142.5186285080474
 30
0.0
 40
3.399999999999999
  0
POLYLINE
  8
0
 66
     1
 10
0.0
 20
0.0
 30
0.0
 70
     1
 75
     6
  0
VERTEX
  8
0
 10
-917.5543378681918
 20
152.4580384170944
 30
0.0
  0
VERTEX
  8
0
 10
-912.4320762414322
 20
149.5006992880247
 30
0.0
 42
0.4142135623731663
  0
VERTEX
  8
0
 10
-911.0660508376477
 20
149.8667246918093
 30
0.0
  0
VERTEX
  8
0
 10
-908.220720161677
 20
154.7949819869265
 30
0.0
 42
-0.2679491924311076
  0
VERTEX
  8
0
 10
-904.7566185465398
 20
156.7949819869271
 30
0.0
  0
VERTEX
  8
0
 10
-898.3358564013192
 20
156.7949819869286
 30
0.0
 42
0.6162000435946758
  0
VERTEX
  8
0
 10
-897.532680160792
 20
158.3907234800718
 30
0.0
 42
0.0893314089779744
  0
VERTEX
  8
0
 10
-917.4226443444254
 20
177.0849587979916
 30
0.0
 42
0.4297137127928508
  0
VERTEX
  8
0
 10
-918.8335347655729
 20
176.7464350279923
 30
0.0
  0
VERTEX
  8
0
 10
-919.7809197864482
 20
175.1055160375066
 30
0.0
 42
0.4142135623730792
  0
VERTEX
  8
0
 10
-919.4148943826639
 20
173.7394906337221
 30
0.0
  0
VERTEX
  8
0
 10
-918.0062153047438
 20
172.9261893888831
 30
0.0
 42
-0.1609283839560959
  0
VERTEX
  8
0
 10
-916.2840500325009
 20
170.9943416553629
 30
0.0
 42
-0.0733933916621086
  0
VERTEX
  8
0
 10
-914.1629441176266
 20
163.0982542407726
 30
0.0
 42
-0.1612410491648635
  0
VERTEX
  8
0
 10
-915.0538351221157
 20
158.7890362243516
 30
0.0
  0
VERTEX
  8
0
 10
-917.9203632722628
 20
153.824063820382
 30
0.0
 42
0.4142135622050646
  0
SEQEND
  8
0
  0
POLYLINE
  8
0
 66
     1
 10
0.0
 20
0.0
 30
0.0
 70
     1
 75
     6
  0
VERTEX
  8
0
 10
-907.5919402419049
 20
149.8840607547551
 30
0.0
  0
VERTEX
  8
0
 10
-905.6226439503254
 20
153.2949819869272
 30
0.0
 42
-0.2679491924310436
  0
VERTEX
  8
0
 10
-904.7566185465414
 20
153.7949819869271
 30
0.0
  0
VERTEX
  8
0
 10
-894.9271509883431
 20
153.7949819869294
 30
0.0
 42
-0.2586072823666202
  0
VERTEX
  8
0
 10
-894.0791233608024
 20
153.3249340063884
 30
0.0
 42
-0.0174743831792829
  0
VERTEX
  8
0
 10
-891.3888898249458
 20
148.6653128380585
 30
0.0
 42
-0.2586072823666159
  0
VERTEX
  8
0
 10
-891.4058301465702
 20
147.695875379227
 30
0.0
  0
VERTEX
  8
0
 10
-896.3205639256711
 20
139.1833067681546
 30
0.0
 42
-0.26794919243111
  0
VERTEX
  8
0
 10
-897.1865893294555
 20
138.6833067681549
 30
0.0
  0
VERTEX
  8
0
 10
-901.1251819126173
 20
138.6833067681559
 30
0.0
 42
-0.5444390961357201
  0
VERTEX
  8
0
 10
-902.0368550346042
 20
140.0942229623431
 30
0.0
 42
0.512413202228076
  0
VERTEX
  8
0
 10
-906.825887536122
 20
148.3890705740733
 30
0.0
 42
-0.5444390961357214
  0
SEQEND
  8
0
  0
POLYLINE
  8
0
 66
     1
 10
0.0
 20
0.0
 30
0.0
 70
     1
 75
     6
  0
VERTEX
  8
0
 10
-922.2878279262047
 20
151.3206825090756
 30
0.0
 42
-0.0568704743569068
  0
VERTEX
  8
0
 10
-928.472103441627
 20
149.8840138774256
 30
0.0
 42
-0.160928384250379
  0
VERTEX
  8
0
 10
-931.0062152959221
 20
150.4095288854016
 30
0.0
  0
VERTEX
  8
0
 10
-932.4148943826608
 20
151.2228301353318
 30
0.0
 42
0.4142135623730844
  0
VERTEX
  8
0
 10
-933.7809197864451
 20
150.8568047315473
 30
0.0
  0
VERTEX
  8
0
 10
-934.87192551947
 20
148.967127370599
 30
0.0
 42
0.3878078098550575
  0
VERTEX
  8
0
 10
-934.5825217194521
 20
147.6501160328138
 30
0.0
 42
-0.0942176113477905
  0
VERTEX
  8
0
 10
-923.4199074079192
 20
136.0997536871427
 30
0.0
 42
0.3976592737278712
  0
VERTEX
  8
0
 10
-922.0836901224893
 20
135.7821265433375
 30
0.0
  0
VERTEX
  8
0
 10
-913.735286580586
 20
140.6020795755582
 30
0.0
 42
0.3093476861785669
  0
VERTEX
  8
0
 10
-913.2469445333031
 20
141.6203547661107
 30
0.0
 42
-0.1535667339208312
  0
VERTEX
  8
0
 10
-912.7111519252782
 20
145.1202566677954
 30
0.0
 42
0.3947411666739797
  0
VERTEX
  8
0
 10
-913.1086816661163
 20
146.4272359969634
 30
0.0
  0
VERTEX
  8
0
 10
-921.4525693104517
 20
151.2445817745091
 30
0.0
 42
0.2198105812135881
  0
SEQEND
  8
0
  0
POLYLINE
  8
0
 66
     1
 10
0.0
 20
0.0
 30
0.0
 70
     1
 75
     6
  0
VERTEX
  8
0
 10
-902.8772506813979
 20
135.6833067681564
 30
0.0
  0
VERTEX
  8
0
 10
-897.1865893294564
 20
135.683306768155
 30
0.0
 42
0.2679491924311135
  0
VERTEX
  8
0
 10
-893.7224877143182
 20
137.683306768154
 30
0.0
  0
VERTEX
  8
0
 10
-890.5121066417057
 20
143.2438498975728
 30
0.0
 42
-0.6162000435950374
  0
VERTEX
  8
0
 10
-888.7285658505065
 20
143.1415501790116
 30
0.0
 42
-0.089331408977955
  0
VERTEX
  8
0
 10
-882.4838652526821
 20
116.5692182566692
 30
0.0
 42
-0.4297137127928439
  0
VERTEX
  8
0
 10
-883.4824806478602
 20
115.5166131949988
 30
0.0
  0
VERTEX
  8
0
 10
-885.3772506896116
 20
115.5166131949988
 30
0.0
 42
-0.4142135623730809
  0
VERTEX
  8
0
 10
-886.3772506896116
 20
116.5166131949988
 30
0.0
  0
VERTEX
  8
0
 10
-886.3772506896116
 20
118.1432156846767
 30
0.0
 42
0.1609283839560923
  0
VERTEX
  8
0
 10
-887.1891972669623
 20
120.6005784267143
 30
0.0
 42
0.0733933916621121
  0
VERTEX
  8
0
 10
-892.9668566010627
 20
126.3855537404081
 30
0.0
 42
0.1612410491648633
  0
VERTEX
  8
0
 10
-897.1441943759734
 20
127.7686285067281
 30
0.0
  0
VERTEX
  8
0
 10
-902.8772506819723
 20
127.7686285100174
 30
0.0
 42
-0.4142135622050645
  0
VERTEX
  8
0
 10
-903.8772506813984
 20
128.7686285100175
 30
0.0
  0
VERTEX
  8
0
 10
-903.8772506813984
 20
134.6833067681564
 30
0.0
 42
-0.4142135623731658
  0
SEQEND
  8
0
  0
POLYLINE
  8
0
 66
     1
 10
0.0
 20
0.0
 30
0.0
 70
     1
 75
     6
  0
VERTEX
  8
0
 10
-906.8772506813984
 20
135.6340809275725
 30
0.0
  0
VERTEX
  8
0
 10
-906.8772506813984
 20
125.9993893724872
 30
0.0
 42
-0.2198105812135779
  0
VERTEX
  8
0
 10
-907.2289748198934
 20
125.2379838252324
 30
0.0
 42
0.0568704743569224
  0
VERTEX
  8
0
 10
-911.5653041094353
 20
120.6005784406982
 30
0.0
 42
0.1609283842503791
  0
VERTEX
  8
0
 10
-912.3772506896054
 20
118.1432156948594
 30
0.0
  0
VERTEX
  8
0
 10
-912.3772506896057
 20
116.5166131949988
 30
0.0
 42
-0.4142135623730951
  0
VERTEX
  8
0
 10
-913.3772506896057
 20
115.5166131949988
 30
0.0
  0
VERTEX
  8
0
 10
-915.5592621556552
 20
115.5166131949988
 30
0.0
 42
-0.3878078098550594
  0
VERTEX
  8
0
 10
-916.5551255312404
 20
116.4257499066586
 30
0.0
 42
0.0942176113477677
  0
VERTEX
  8
0
 10
-920.9767255897388
 20
131.8680386459262
 30
0.0
 42
-0.3976592737278543
  0
VERTEX
  8
0
 10
-920.5836901224906
 20
133.1840503319869
 30
0.0
  0
VERTEX
  8
0
 10
-912.2352865805883
 20
138.004003364208
 30
0.0
 42
-0.3093476861785718
  0
VERTEX
  8
0
 10
-911.1092633738846
 20
137.9177823876151
 30
0.0
 42
0.153566733920945
  0
VERTEX
  8
0
 10
-907.8103631122583
 20
136.631841446482
 30
0.0
 42
-0.3947411666738038
  0
SEQEND
  8
0
  0
INSERT
  8
0
 66
     1
  2
GENPRESE
 10
-1284.025938705603
 20
0.0000000000000514
 30
0.0
  0
ATTRIB
  8
0
 10
-1284.025938705603
 20
0.0000000000000514
 30
0.0
 40
3.5
  1
A3
  2
GEN-KO2
 70
     0
  7
GENPRESET
  0
ATTRIB
  8
0
 10
-1284.025938705603
 20
-4.999999999999948
 30
0.0
 40
3.5
  1
item
  2
GEN-KO3
 70
     0
  7
GENPRESET
  0
ATTRIB
  8
0
 10
-1284.025938705603
 20
-9.999999999999948
 30
0.0
 40
3.5
  1
15
  2
GENSI
 70
     0
  7
GENPRESET
  0
ATTRIB
  8
0
 10
-1284.025938705603
 20
-14.99999999999994
 30
0.0
 40
3.5
  1

  2
GENSD
 70
     0
  7
GENPRESET
  0
ATTRIB
  8
0
 10
-1283.958010813849
 20
-19.93786241836119
 30
0.0
 40
3.5
  1
0
  2
GENIF
 70
     0
  7
GENPRESET
  0
ATTRIB
  8
0
 10
-1283.991974759726
 20
-24.96893120918057
 30
0.0
 40
3.5
  1
2
  2
GENPOSVAR
 70
     0
  7
GENPRESET
  0
ATTRIB
  8
0
 10
-1283.991974759726
 20
-29.96893120918057
 30
0.0
 40
3.5
  1
0
  2
GENPOSBLK
 70
     0
  7
GENPRESET
  0
ATTRIB
  8
0
 10
-1283.991974759726
 20
-34.96893120918057
 30
0.0
 40
3.5
  1
1
  2
GENPOSINC
 70
     0
  7
GENPRESET
  0
ATTRIB
  8
0
 10
-1283.991974759726
 20
-39.96893120918057
 30
0.0
 40
3.5
  1
GEN-POS
  2
GENPARPOS
 70
     0
  7
GENPRESET
  0
ATTRIB
  8
0
 10
-1283.991974759726
 20
-44.96893120918057
 30
0.0
 40
3.5
  1
GEN-SUM
  2
GENPARSUM
 70
     0
  7
GENPRESET
  0
ATTRIB
  8
0
 10
-1283.991974759726
 20
-49.96893120918057
 30
0.0
 40
3.5
  1
CANONII
  2
GENPARDRU
 70
     0
  7
GENPRESET
  0
ATTRIB
  8
0
 10
-1283.991974759726
 20
-54.96893120918057
 30
0.0
 40
3.5
  1

  2
GENSTDLG
 70
     0
  7
GENPRESET
  0
ATTRIB
  8
0
 10
-1283.991974759726
 20
-59.96893120918057
 30
0.0
 40
3.5
  1
13
  2
GENCOLBK
 70
     0
  7
GENPRESET
  0
ATTRIB
  8
0
 10
-1283.991974759726
 20
-64.96893120918056
 30
0.0
 40
3.5
  1
4
  2
GENCOLTI
 70
     0
  7
GENPRESET
  0
ATTRIB
  8
0
 10
-1283.991974759726
 20
-69.96893120918056
 30
0.0
 40
3.5
  1
2
  2
GENCOLTX
 70
     0
  7
GENPRESET
  0
ATTRIB
  8
0
 10
-1283.991974759726
 20
-74.96893120918056
 30
0.0
 40
3.5
  1
edlin
  2
GENEDITOR
 70
     0
  7
GENPRESET
  0
ATTRIB
  8
0
 10
-1283.991974759726
 20
-79.96893120918056
 30
0.0
 40
3.5
  1
M
  2
GENINCH
 70
     0
  7
GENPRESET
  0
ATTRIB
  8
0
 10
-1283.991974759726
 20
-84.96893120918056
 30
0.0
 40
3.5
  1
ISO
  2
GENDIMSTIL
 70
     0
  7
GENPRESET
  0
SEQEND
  8
0
  0
LINE
  8
ITEM_50
 10
-932.1272901406869
 20
105.1170460276343
 30
0.0
 11
-932.1272901406869
 21
104.1170460276343
 31
0.0
  0
LINE
  8
ITEM_50
 10
-937.9875344234274
 20
105.1170460276343
 30
0.0
 11
-879.4882828473942
 21
105.1170460276343
 31
0.0
  0
LINE
  8
ITEM_50
 10
-879.4882828473942
 20
105.1170460276343
 30
0.0
 11
-879.4882828473942
 21
104.1170460276343
 31
0.0
  0
LINE
  8
ITEM_50
 10
-937.9875344234274
 20
104.1170460276343
 30
0.0
 11
-879.4882828473942
 21
104.1170460276342
 31
0.0
  0
LINE
  8
ITEM_50
 10
-926.8267451259696
 20
105.1170460276343
 30
0.0
 11
-926.8267451259696
 21
104.1170460276343
 31
0.0
  0
LINE
  8
ITEM_50
 10
-927.8461617659559
 20
105.1170460276343
 30
0.0
 11
-927.8461617659559
 21
104.1170460276342
 31
0.0
  0
LINE
  8
ITEM_50
 10
-937.9875344234274
 20
105.1170460276343
 30
0.0
 11
-937.9875344234272
 21
104.1170460276343
 31
0.0
  0
LINE
  8
ITEM_50
 10
-937.9875344234274
 20
189.8486707180304
 30
0.0
 11
-937.9875344234272
 21
188.8486707180304
 31
0.0
  0
LINE
  8
ITEM_50
 10
-937.9875344234274
 20
188.8486707180304
 30
0.0
 11
-879.4882828473942
 21
188.8486707180304
 31
0.0
  0
LINE
  8
ITEM_50
 10
-879.4882828473942
 20
189.8486707180304
 30
0.0
 11
-879.4882828473942
 21
188.8486707180304
 31
0.0
  0
LINE
  8
ITEM_50
 10
-937.9875344234274
 20
189.8486707180304
 30
0.0
 11
-879.4882828473942
 21
189.8486707180304
 31
0.0
  0
LINE
  8
ITEM_50
 10
-919.5426553456481
 20
188.8486707180304
 30
0.0
 11
-919.5426553456481
 21
189.8486707180304
 31
0.0
  0
LINE
  8
ITEM_50
 10
-903.3772506908248
 20
188.8486707180304
 30
0.0
 11
-903.3772506908248
 21
189.8486707180304
 31
0.0
  0
LINE
  8
ITEM_50
 10
-895.3772506908294
 20
188.8486707180304
 30
0.0
 11
-895.3772506908294
 21
189.8486707180304
 31
0.0
  0
LINE
  8
ITEM_50
 10
-865.4226760419533
 20
180.2196069458815
 30
0.0
 11
-864.4226760419533
 21
180.2196069458815
 31
0.0
  0
LINE
  8
ITEM_50
 10
-864.4226760419533
 20
180.2196069458815
 30
0.0
 11
-864.4226760419533
 21
112.5220945919032
 31
0.0
  0
LINE
  8
ITEM_50
 10
-865.4226760419533
 20
112.5220945919032
 30
0.0
 11
-864.4226760419533
 21
112.5220945919032
 31
0.0
  0
LINE
  8
ITEM_50
 10
-865.4226760419533
 20
180.2196069458815
 30
0.0
 11
-865.4226760419533
 21
112.5220945919032
 31
0.0
  0
LINE
  8
ITEM_50
 10
-865.4226760419533
 20
166.0611661814866
 30
0.0
 11
-864.4226760419533
 21
166.0611661814866
 31
0.0
  0
LINE
  8
ITEM_50
 10
-865.4226760419533
 20
168.4096456863943
 30
0.0
 11
-864.4226760419533
 21
168.4096456863943
 31
0.0
  0
LINE
  8
ITEM_50
 10
-865.4226760419533
 20
160.466756142229
 30
0.0
 11
-864.4226760419533
 21
160.466756142229
 31
0.0
  0
LINE
  8
ITEM_50
 10
-970.084535738948
 20
180.2196069458815
 30
0.0
 11
-970.084535738948
 21
112.5220945919032
 31
0.0
  0
LINE
  8
ITEM_50
 10
-970.084535738948
 20
112.5220945919032
 30
0.0
 11
-969.084535738948
 21
112.5220945919032
 31
0.0
  0
LINE
  8
ITEM_50
 10
-969.084535738948
 20
180.2196069458815
 30
0.0
 11
-969.084535738948
 21
112.5220945919032
 31
0.0
  0
LINE
  8
ITEM_50
 10
-970.084535738948
 20
180.2196069458815
 30
0.0
 11
-969.084535738948
 21
180.2196069458815
 31
0.0
  0
POLYLINE
  8
ITEM_50
 66
     1
 10
0.0
 20
0.0
 30
0.0
 70
     1
 75
     6
  0
VERTEX
  8
ITEM_50
 10
-926.6256544339939
 20
169.2426682754922
 30
0.0
 42
0.414263854233339
  0
VERTEX
  8
ITEM_50
 10
-926.0767451267141
 20
167.1934071303914
 30
0.0
  0
VERTEX
  8
ITEM_50
 10
-924.3461617614871
 20
166.1942543573
 30
0.0
 42
0.414213562373158
  0
VERTEX
  8
ITEM_50
 10
-922.9801363574936
 20
166.5602797603003
 30
0.0
  0
VERTEX
  8
ITEM_50
 10
-921.0424307723524
 20
169.9164842794264
 30
0.0
 42
-0.6162187735833871
  0
VERTEX
  8
ITEM_50
 10
-919.0366592068717
 20
169.8013862422737
 30
0.0
 42
-0.0733895024742403
  0
VERTEX
  8
ITEM_50
 10
-917.1428593880634
 20
162.751692430592
 30
0.0
 42
-0.1612569253945081
  0
VERTEX
  8
ITEM_50
 10
-917.6519113361296
 20
160.2890362146366
 30
0.0
  0
VERTEX
  8
ITEM_50
 10
-919.884967629609
 20
156.4212692632931
 30
0.0
 42
-0.1612569253945047
  0
VERTEX
  8
ITEM_50
 10
-921.7631645013
 20
154.7490892385995
 30
0.0
 42
-0.073389502474252
  0
VERTEX
  8
ITEM_50
 10
-928.8152783426849
 20
152.8643210936199
 30
0.0
 42
-0.6162187735833309
  0
VERTEX
  8
ITEM_50
 10
-929.917841947597
 20
154.5438212062028
 30
0.0
  0
VERTEX
  8
ITEM_50
 10
-927.9801363624583
 20
157.9000257253298
 30
0.0
 42
0.4142135623730466
  0
VERTEX
  8
ITEM_50
 10
-928.3461617654591
 20
159.2660511293242
 30
0.0
  0
VERTEX
  8
ITEM_50
 10
-930.0783808319175
 20
160.2661482749639
 30
0.0
 42
0.4141632723013441
  0
VERTEX
  8
ITEM_50
 10
-932.1272901406869
 20
159.7173332095713
 30
0.0
  0
VERTEX
  8
ITEM_50
 10
-937.4318338971547
 20
150.5332360890133
 30
0.0
 42
0.3933068777130936
  0
VERTEX
  8
ITEM_50
 10
-936.3129289252049
 20
145.1994648181405
 30
0.0
 42
-0.2197515299980366
  0
VERTEX
  8
ITEM_50
 10
-919.5426553456481
 20
116.1524989566705
 30
0.0
 42
0.097425543834598
  0
VERTEX
  8
ITEM_50
 10
-919.1081939143964
 20
114.670726802518
 30
0.0
 42
0.2849621153307711
  0
VERTEX
  8
ITEM_50
 10
-915.4829264281836
 20
112.5166131949988
 30
0.0
  0
VERTEX
  8
ITEM_50
 10
-904.8769931392098
 20
112.5184342532947
 30
0.0
 42
0.4141632727943368
  0
VERTEX
  8
ITEM_50
 10
-903.3772506919709
 20
114.0184342303241
 30
0.0
  0
VERTEX
  8
ITEM_50
 10
-903.3772506908248
 20
116.0186285103042
 30
0.0
 42
0.414213562373145
  0
VERTEX
  8
ITEM_50
 10
-904.3772506902494
 20
117.0186285108778
 30
0.0
  0
VERTEX
  8
ITEM_50
 10
-908.2526618566798
 20
117.0186285131016
 30
0.0
 42
-0.6162187735833865
  0
VERTEX
  8
ITEM_50
 10
-909.1558698153207
 20
118.8132266615723
 30
0.0
 42
-0.0733895024742509
  0
VERTEX
  8
ITEM_50
 10
-903.9975557949053
 20
123.9781523201842
 30
0.0
 42
-0.1612569253945089
  0
VERTEX
  8
ITEM_50
 10
-901.6103069770679
 20
124.7686285092906
 30
0.0
  0
VERTEX
  8
ITEM_50
 10
-897.1441943945469
 20
124.7686285067281
 30
0.0
 42
-0.161256925394504
  0
VERTEX
  8
ITEM_50
 10
-894.7569455776156
 20
123.9781523148824
 30
0.0
 42
-0.0733895024742514
  0
VERTEX
  8
ITEM_50
 10
-889.5986315631273
 20
118.8132266503528
 30
0.0
 42
-0.6162187735833208
  0
VERTEX
  8
ITEM_50
 10
-890.5018395238273
 20
117.0186285029193
 30
0.0
  0
VERTEX
  8
ITEM_50
 10
-894.3772506902569
 20
117.0186285051404
 30
0.0
 42
0.4142135623730576
  0
VERTEX
  8
ITEM_50
 10
-895.3772506908294
 20
116.0186285057149
 30
0.0
  0
VERTEX
  8
ITEM_50
 10
-895.3772506919769
 20
114.0203229523215
 30
0.0
 42
0.4142638537405894
  0
VERTEX
  8
ITEM_50
 10
-893.8769931392157
 20
112.5203229735713
 30
0.0
  0
VERTEX
  8
ITEM_50
 10
-883.5590006377155
 20
112.5220945919032
 30
0.0
 42
0.4353913719365325
  0
VERTEX
  8
ITEM_50
 10
-879.4882828473942
 20
116.7320378660566
 30
0.0
 42
0.2399031352328201
  0
VERTEX
  8
ITEM_50
 10
-915.7838471840684
 20
179.5977994295763
 30
0.0
 42
0.4353913710173221
  0
VERTEX
  8
ITEM_50
 10
-921.4651238980025
 20
178.1774260627874
 30
0.0
  0
SEQEND
  8
ITEM_50
  0
POINT
  8
ITEM_HILFE
 10
-899.3772506858074
 20
117.0186285108778
 30
0.0
  0
POINT
  8
ITEM_HILFE
 10
-899.3772506858074
 20
112.5184342532947
 30
0.0
  0
POINT
  8
ITEM_HILFE
 10
-929.3764722873404
 20
164.4800007425317
 30
0.0
  0
POINT
  8
ITEM_HILFE
 10
-925.4801363599759
 20
162.2301527428151
 30
0.0
  0
INSERT
  8
0
 66
     1
  2
AIT$MERK
 10
-1284.025938705603
 20
0.0000000000000514
 30
0.0
  0
ATTRIB
  8
AIT$HILFE
 10
-1283.194847411291
 20
-26.76290463692038
 30
0.0
 40
2.0
  1
genius11
  2
AIT$HAUTPMENUE
 70
     1
 41
0.8
  7
AIT$TSTIL
  0
ATTRIB
  8
AIT$HILFE
 10
-1283.194847411291
 20
-23.76290463692038
 30
0.0
 40
2.0
  1
1.0
  2
AIT$MASSTABSFAKTOR
 70
     1
 41
0.8
  7
AIT$TSTIL
  0
ATTRIB
  8
AIT$HILFE
 10
-1283.194847411291
 20
-20.76290463692038
 30
0.0
 40
2.0
  1
0
  2
AIT$LETZTE-POSITION
 70
     1
 41
0.8
  7
AIT$TSTIL
  0
ATTRIB
  8
AIT$HILFE
 10
-1283.194847411291
 20
-17.76290463692038
 30
0.0
 40
2.0
  1
0
  2
AIT$MERKER-4
 70
     1
 41
0.8
  7
AIT$TSTIL
  0
ATTRIB
  8
AIT$HILFE
 10
-1283.194847411291
 20
-14.76290463692038
 30
0.0
 40
2.0
  1
0
  2
AIT$MERKER-5
 70
     1
 41
0.8
  7
AIT$TSTIL
  0
ATTRIB
  8
AIT$HILFE
 10
-1283.194847411291
 20
-11.76290463692038
 30
0.0
 40
2.0
  1
1
  2
AIT$MERKER-6
 70
     1
 41
0.8
  7
AIT$TSTIL
  0
ATTRIB
  8
AIT$HILFE
 10
-1283.194847411291
 20
-8.762904636920382
 30
0.0
 40
2.0
  1
-
  2
AIT$MERKER-7
 70
     1
 41
0.8
  7
AIT$TSTIL
  0
ATTRIB
  8
AIT$HILFE
 10
-1283.194847411291
 20
-5.762904636920382
 30
0.0
 40
2.0
  1
-
  2
AIT$MERKER-8
 70
     1
 41
0.8
  7
AIT$TSTIL
  0
ATTRIB
  8
AIT$HILFE
 10
-1283.194847411291
 20
-2.762904636920382
 30
0.0
 40
2.0
  1
-
  2
AIT$MERKER-9
 70
     1
 41
0.8
  7
AIT$TSTIL
  0
SEQEND
  8
0
  0
ENDBLK
  8
0
  0
ENDSEC
  0
SECTION
  2
ENTITIES
  0
ARC
  8
ITEM_50
 10
105.1405809465736
 20
131.0717016786653
 30
0.0
 40
2.5
 50
179.9999999999956
 51
270.0
  0
LINE
  8
ITEM_50
 10
105.1405809465736
 20
128.5717016786653
 30
0.0
 11
118.4066461971993
 21
128.5717016786653
 31
0.0
  0
LINE
  8
ITEM_50
 10
119.2129679747342
 20
131.0717016786655
 30
0.0
 11
119.2129679747342
 21
132.5717016786655
 31
0.0
  0
LINE
  8
ITEM_50
 10
161.154755888546
 20
131.0717016786655
 30
0.0
 11
161.154755888546
 21
132.5717016786655
 31
0.0
  0
ARC
  8
ITEM_50
 10
118.4066461971993
 20
131.0717016786653
 30
0.0
 40
2.5
 50
270.0
 51
270.0
  0
ARC
  8
ITEM_50
 10
158.654755888546
 20
131.0717016786655
 30
0.0
 40
2.5
 50
270.0
 51
0.0
  0
LINE
  8
ITEM_50
 10
102.6405809465736
 20
131.0717016786655
 30
0.0
 11
102.6405809465738
 21
132.5717016786655
 31
0.0
  0
LINE
  8
ITEM_50
 10
102.6405809465738
 20
132.5717016786655
 30
0.0
 11
161.154755888546
 21
132.5717016786655
 31
0.0
  0
LINE
  8
ITEM_50
 10
158.654755888546
 20
128.5717016786655
 30
0.0
 11
118.4066461971993
 21
128.5717016786653
 31
0.0
  0
ARC
  8
ITEM_50
 10
121.7129679747342
 20
131.0717016786653
 30
0.0
 40
2.5
 50
179.9999999999992
 51
270.0
  0
LINE
  8
ITEM_50
 10
182.6547558885194
 20
220.2900899107971
 30
0.0
 11
181.154755888546
 21
220.2900899107971
 31
0.0
  0
LINE
  8
ITEM_50
 10
182.654755888546
 20
152.5717016786654
 30
0.0
 11
181.154755888546
 21
152.5717016786654
 31
0.0
  0
ARC
  8
ITEM_50
 10
182.6547558885224
 20
188.0190336006858
 30
0.0
 40
2.5
 50
0.0
 51
90.0
  0
LINE
  8
ITEM_50
 10
185.154755888546
 20
155.0717016786654
 30
0.0
 11
185.154755888546
 21
158.9139158341639
 31
0.0
  0
ARC
  8
ITEM_50
 10
182.654755888546
 20
158.9139158341639
 30
0.0
 40
2.5
 50
0.0
 51
0.0000000000000254
  0
ARC
  8
ITEM_50
 10
182.6547558885194
 20
217.7900899107971
 30
0.0
 40
2.5
 50
359.9999999999999
 51
90.0
  0
ARC
  8
ITEM_50
 10
182.654755888546
 20
155.0717016786654
 30
0.0
 40
2.5
 50
270.0000000000001
 51
359.9999999999999
  0
LINE
  8
ITEM_50
 10
181.154755888546
 20
190.5190336006858
 30
0.0
 11
182.6547558885224
 21
190.5190336006858
 31
0.0
  0
LINE
  8
ITEM_50
 10
185.154755888546
 20
217.7900899107971
 30
0.0
 11
185.154755888546
 21
158.9139158341639
 31
0.0
  0
LINE
  8
ITEM_50
  6
BYBLOCK
 10
181.154755888546
 20
152.5717016786654
 30
0.0
 11
181.154755888546
 21
220.2900899107971
 31
0.0
  0
ARC
  8
ITEM_50
 10
122.677069589872
 20
216.298408579285
 30
0.0
 40
4.0
 50
56.98303869018339
 51
56.98303869018396
  0
ARC
  8
ITEM_50
 10
106.6386399680582
 20
188.5190336006859
 30
0.0
 40
4.0
 50
234.7840914295432
 51
234.7840914295455
  0
ARC
  8
ITEM_50
 10
81.2656360527138
 20
152.5717016786653
 30
0.0
 40
40.0
 50
54.78409142954322
 51
54.78409142954581
  0
ARC
  8
ITEM_50
 10
122.677069589872
 20
216.298408579285
 30
0.0
 40
4.0
 50
56.98303869018396
 51
56.98303869018413
  0
INSERT
  8
0
 66
     1
  2
GENPRESE
 10
0.0
 20
0.0
 30
0.0
  0
ATTRIB
  8
0
 10
0.0
 20
0.0
 30
0.0
 40
3.5
  1
A3
  2
GEN-KO2
 70
     0
  7
GENPRESET
  0
ATTRIB
  8
0
 10
0.0
 20
-5.0
 30
0.0
 40
3.5
  1
item
  2
GEN-KO3
 70
     0
  7
GENPRESET
  0
ATTRIB
  8
0
 10
0.0
 20
-10.0
 30
0.0
 40
3.5
  1
15
  2
GENSI
 70
     0
  7
GENPRESET
  0
ATTRIB
  8
0
 10
0.0
 20
-15.0
 30
0.0
 40
3.5
  1

  2
GENSD
 70
     0
  7
GENPRESET
  0
ATTRIB
  8
0
 10
0.0679278917532429
 20
-19.93786241836124
 30
0.0
 40
3.5
  1
0
  2
GENIF
 70
     0
  7
GENPRESET
  0
ATTRIB
  8
0
 10
0.0339639458766215
 20
-24.96893120918062
 30
0.0
 40
3.5
  1
2
  2
GENPOSVAR
 70
     0
  7
GENPRESET
  0
ATTRIB
  8
0
 10
0.0339639458766215
 20
-29.96893120918062
 30
0.0
 40
3.5
  1
0
  2
GENPOSBLK
 70
     0
  7
GENPRESET
  0
ATTRIB
  8
0
 10
0.0339639458766215
 20
-34.96893120918062
 30
0.0
 40
3.5
  1
1
  2
GENPOSINC
 70
     0
  7
GENPRESET
  0
ATTRIB
  8
0
 10
0.0339639458766215
 20
-39.96893120918062
 30
0.0
 40
3.5
  1
GEN-POS
  2
GENPARPOS
 70
     0
  7
GENPRESET
  0
ATTRIB
  8
0
 10
0.0339639458766215
 20
-44.96893120918062
 30
0.0
 40
3.5
  1
GEN-SUM
  2
GENPARSUM
 70
     0
  7
GENPRESET
  0
ATTRIB
  8
0
 10
0.0339639458766215
 20
-49.96893120918062
 30
0.0
 40
3.5
  1
CANONII
  2
GENPARDRU
 70
     0
  7
GENPRESET
  0
ATTRIB
  8
0
 10
0.0339639458766215
 20
-54.96893120918062
 30
0.0
 40
3.5
  1

  2
GENSTDLG
 70
     0
  7
GENPRESET
  0
ATTRIB
  8
0
 10
0.0339639458766215
 20
-59.96893120918062
 30
0.0
 40
3.5
  1
13
  2
GENCOLBK
 70
     0
  7
GENPRESET
  0
ATTRIB
  8
0
 10
0.0339639458766215
 20
-64.96893120918062
 30
0.0
 40
3.5
  1
4
  2
GENCOLTI
 70
     0
  7
GENPRESET
  0
ATTRIB
  8
0
 10
0.0339639458766215
 20
-69.96893120918062
 30
0.0
 40
3.5
  1
2
  2
GENCOLTX
 70
     0
  7
GENPRESET
  0
ATTRIB
  8
0
 10
0.0339639458766215
 20
-74.96893120918062
 30
0.0
 40
3.5
  1
edlin
  2
GENEDITOR
 70
     0
  7
GENPRESET
  0
ATTRIB
  8
0
 10
0.0339639458766215
 20
-79.96893120918062
 30
0.0
 40
3.5
  1
M
  2
GENINCH
 70
     0
  7
GENPRESET
  0
ATTRIB
  8
0
 10
0.0339639458766215
 20
-84.96893120918062
 30
0.0
 40
3.5
  1
ISO
  2
GENDIMSTIL
 70
     0
  7
GENPRESET
  0
SEQEND
  8
0
  0
LINE
  8
ITEM_50
  6
BYBLOCK
 10
82.64058094657387
 20
152.5717016786654
 30
0.0
 11
82.6405809465739
 21
220.2900899107971
 31
0.0
  0
LINE
  8
ITEM_50
 10
78.64058094657387
 20
217.7900899107971
 30
0.0
 11
78.64058094657387
 21
158.9139158341639
 31
0.0
  0
ARC
  8
ITEM_50
 10
81.14058094657387
 20
155.0717016786654
 30
0.0
 40
2.5
 50
180.0
 51
269.9999999999998
  0
ARC
  8
ITEM_50
 10
81.14058094660047
 20
217.7900899107971
 30
0.0
 40
2.5
 50
90.0
 51
180.0
  0
ARC
  8
ITEM_50
 10
81.14058094657387
 20
158.9139158341639
 30
0.0
 40
2.5
 50
179.9999999999999
 51
180.0
  0
LINE
  8
ITEM_50
 10
78.64058094657387
 20
155.0717016786654
 30
0.0
 11
78.64058094657387
 21
158.9139158341639
 31
0.0
  0
LINE
  8
ITEM_50
 10
81.14058094657387
 20
152.5717016786654
 30
0.0
 11
82.64058094657387
 21
152.5717016786654
 31
0.0
  0
LINE
  8
ITEM_50
 10
81.14058094660047
 20
220.2900899107971
 30
0.0
 11
82.64058094657387
 21
220.2900899107971
 31
0.0
  0
ARC
  8
ITEM_50
 10
123.6002313884587
 20
241.7900899107972
 30
0.0
 40
2.5
 50
90.0
 51
180.0000000000007
  0
LINE
  8
ITEM_50
 10
158.654755888546
 20
244.2900899107971
 30
0.0
 11
118.4066461971993
 21
244.2900899107972
 31
0.0
  0
LINE
  8
ITEM_50
 10
102.6405809465738
 20
240.2900899107971
 30
0.0
 11
161.154755888546
 21
240.2900899107971
 31
0.0
  0
LINE
  8
ITEM_50
 10
102.6405809465736
 20
241.7900899107971
 30
0.0
 11
102.6405809465738
 21
240.2900899107971
 31
0.0
  0
ARC
  8
ITEM_50
 10
158.654755888546
 20
241.7900899107971
 30
0.0
 40
2.5
 50
0.0
 51
90.0
  0
ARC
  8
ITEM_50
 10
118.4066461971993
 20
241.7900899107972
 30
0.0
 40
2.5
 50
90.0
 51
90.0
  0
LINE
  8
ITEM_50
 10
161.154755888546
 20
241.7900899107971
 30
0.0
 11
161.154755888546
 21
240.2900899107971
 31
0.0
  0
LINE
  8
ITEM_50
 10
121.1002313884587
 20
241.7900899107971
 30
0.0
 11
121.1002313884587
 21
240.2900899107971
 31
0.0
  0
LINE
  8
ITEM_50
 10
105.1405809465736
 20
244.2900899107972
 30
0.0
 11
118.4066461971993
 21
244.2900899107972
 31
0.0
  0
ARC
  8
ITEM_50
 10
105.1405809465736
 20
241.7900899107972
 30
0.0
 40
2.5
 50
90.0
 51
180.0000000000043
  0
POINT
  8
ITEM_HILFE
 10
133.2271602797754
 20
182.5717016786626
 30
0.0
  0
POLYLINE
  8
ITEM_50
 66
     1
 10
0.0
 20
0.0
 30
0.0
 70
     1
  0
VERTEX
  8
ITEM_50
 10
124.8566187234067
 20
219.6524457845808
 30
0.0
 42
0.4297215771585091
  0
VERTEX
  8
ITEM_50
 10
119.2129679747343
 20
218.298408579285
 30
0.0
  0
VERTEX
  8
ITEM_50
 10
103.1745383529205
 20
190.5190336006858
 30
0.0
 42
0.3877945824087882
  0
VERTEX
  8
ITEM_50
 10
104.3320032484813
 20
185.2510943350478
 30
0.0
 42
-0.2197187243806798
  0
VERTEX
  8
ITEM_50
 10
121.1000038712713
 20
156.208065315029
 30
0.0
 42
0.3877945824087995
  0
VERTEX
  8
ITEM_50
 10
125.0834406531271
 20
152.5717016786653
 30
0.0
  0
VERTEX
  8
ITEM_50
 10
157.1602998967543
 20
152.5717016786655
 30
0.0
 42
0.4297215771585083
  0
VERTEX
  8
ITEM_50
 10
161.154755888546
 20
156.7822279944548
 30
0.0
 42
0.2399222180100882
  0
SEQEND
  8
ITEM_50
  0
ENDSEC
  0
EOF
